Metal TR.NET - Yerli Gruplarina Sahip CIK !  
  Giriş veya Kayıt Ol
::  Ana Sayfa  ::  Hesabınız  ::  Forumlar  ::  Haberler  ::  Kritik  ::  Fotoğraf Galerisi  ::  Hosting  ::  Köşe Yazıları  ::
Menü
 Site
tree-T.gif Ana Sayfa
 Forum
 Haber Gönder
 Haber Arşivi
tree-T.gif Etkinlik Takvimi
tree-T.gif Site Kadrosu
 Extra
 Hosting
 En İyi 10
 İnteraktif
petitrond.gif Demo & Mp3 Arşivi
petitrond.gif Video İzleme
petitrond.gif Fotoğraf Galerisi
 Destek
 Destekleyenler
 Linkekle
 Bizi Öner!
 
İçerik
. Yerli Gruplar
. Yabancı Gruplar
. Biyografiler
. Albümler
. Albüm Kritikleri
. Röportajlar
. Köşe Yazıları
. Köşe Yazıları Arşiv
. Dergiler
. Etkinlikler
· Gitar & TAB
 
Albüm Kritikleri
· KORN - The path of totality
· Hypocrisy-A Taste of Extreme Divinity (2009)
· Cyntia - Endless World (2012)
· Tiamat - The Scarred People
· Moonspell Alpha Noir-Omega White.
· Ghost - Opus Eponymous
· Testament - Dark Roots of Earth
· Lamb of God - Resolution
· Volbeat Live From Beyond Hell/Above Heaven
· Pentagram - MMXII
 
Kısa Haberler

[ Haber Arşivi ]
 
Son 10 Haber
· SECURIS yeni Albümünü yayınladı.
[ 0 yorum - 43 okuma ]
· OPETH 22 Mart 2015′te İstanbul'da, 23 Mart'ta ise Ankara'da
[ 0 yorum - 8122 okuma ]
· Blind Guardian Istanbul konseri 14 Mayıs 2015
[ 0 yorum - 8575 okuma ]
· Blind Guardian 8 yıl aradan sonra yeniden Ankara’da
[ 0 yorum - 7916 okuma ]
· DYING FETUS 11 HAZİRAN 2015 İstanbul'da
[ 0 yorum - 9711 okuma ]
· Kurt Cobain belgeselinden ilk fragman geldi
[ 0 yorum - 8001 okuma ]
· Takıntı - Buhran klibi yayınlandı!
[ 0 yorum - 10210 okuma ]
· Wayne Static 48 yaşında hayatını kaybetti
[ 0 yorum - 10140 okuma ]
· Niklas Kvarforth video röportajı
[ 0 yorum - 9543 okuma ]
· Slipknot - The Gray Chapter
[ 0 yorum - 11646 okuma ]

[ Devamı Haberler Bölümünde ]
 
Fotoğraf Galerisi

B Noktası



B Noktası



B Noktası



Heretic Soul @ Waldb ...



Heretic Soul



Heretic Soul



Heretic Soul @ Rock ...



Anoreksi Promo 2011



Anoreksi Promo 2011



Anoreksi Promo 2011


[ Fotoğraf Galerisi ]
 
Rastgele Biyografi


Crossover
 
MetalTR Arama
 
Üyelik
 
Üye Olun
Kayıp Şifre

Güvenlik Kodu: Güvenlik Kodu
Güvenlik Kodunu Girin:
 
Üyelik:
Bugün: 0
Dün: 0
Bekleyen Üyelik(ler): 0
Toplam Üye: 42,734
En Son Üye: Stolas

Şu An Bağlı:
Misafir(ler): 83
Üye(ler): 0
Toplam: 83
 
Forumlardan
Last 10 Forum Messages

Netflix Türkiye'ye geliyor
Son mesaj atan; ImpLosioN

en cok sevdiginiz içecek
Son mesaj atan; ImpLosioN

Şu anda kendinizi nasıl hissediyorsunuz?
Son mesaj atan; ImpLosioN

Şu anda ne dinliyorsunuz?
Son mesaj atan; ImpLosioN

Şu anda Ne Dinliyorsunuz?
Son mesaj atan; ImpLosioN

13lackHan - Turkish Black Metal
Son mesaj atan; BlackHan

BURSA 13LACKHAN AMDUSCIAS ELEMANLARI ELEMAN ARIYOR..
Son mesaj atan; BlackHan

13 yil sonra
Son mesaj atan; slayeeer

Metal Albüm Arşivimi Satıyorum!Türkiye'de bulunamaz albümler
Son mesaj atan; vury

Procession - Doom Decimation
Son mesaj atan; vury


[ Metal TR.NET - Yerli Gruplarina Sahip CIK ! ]
 
Köşe Yazıları
 
metaltr.net :: Başlığı Görüntüle - Wednesday 13 - Bad Things
 
 SSSSSS   AramaArama   Üye ListesiÜye Listesi   Kullanıcı GruplarıKullanıcı Grupları Üye ListesiCan Sıkıntısı Giderici!   
 ProfilProfil   Özel mesajlarınızı kontrol etmek için login olunÖzel mesajlarınızı kontrol etmek için login olun     GirişGiriş 
GünlüklerGünlükler    Günlük Kontrol PaneliGünlük Kontrol Paneli    GünlüğümGünlüğüm

Wednesday 13 - Bad Things

 
Yeni Başlık Gönder   Cevap Gönder    metaltr.net Forum Ana Sayfası -> Gitar / Tab
Önceki başlık :: Sonraki başlık  
Yazar Mesaj
swamplord
Veled-i METAL
Veled-i METAL


Kayıt: Oct 03, 2006
Mesajlar: 111
Nerden: İstanbul/Büyükçekmece

MesajTarih: Pts Tem 02, 2007 12:27 pm    Mesaj konusu: Wednesday 13 - Bad Things Alıntıyla Cevap Ver
Mesaj: #1   

"wednesday 13 - bad things" gitar tablarını nerde bulabilirm? guitar pro 4 için...
Başa dön
Kullanıcı profilini gör Özel mesaj gönder
Sponsor Linkler







Tarih: Google ve Sponsor Baglantilari    Mesaj konusu: Sizde bu bölüme reklam verebilirsiniz !
: #   


Başa dön
asfas
Geçerken Uğrayan
Geçerken Uğrayan


Kayıt: Sep 13, 2007
Mesajlar: 38
Nerden: istanbul

MesajTarih: Cum Eyl 14, 2007 2:43 pm    Mesaj konusu: Alıntıyla Cevap Ver
Mesaj: #2   

WEDNESDAY 13 2007 YENI ALBUM MU NE ZAMAN CIKARTIYOR ARKADASLAR BILENIZ WARSA CEWAP ATSIN OK
_________________
asfas
Başa dön
Kullanıcı profilini gör Özel mesaj gönder E-mail'i gönder
asfas
Geçerken Uğrayan
Geçerken Uğrayan


Kayıt: Sep 13, 2007
Mesajlar: 38
Nerden: istanbul

MesajTarih: Cum Eyl 14, 2007 2:44 pm    Mesaj konusu: Alıntıyla Cevap Ver
Mesaj: #3   

WEDNESDAY 13 2007 YENI ALBUM MU NE ZAMAN CIKARTIYOR ARKADASLAR BILENIZ WARSA CEWAP ATSIN OK
_________________
asfas
Başa dön
Kullanıcı profilini gör Özel mesaj gönder E-mail'i gönder
asfas
Geçerken Uğrayan
Geçerken Uğrayan


Kayıt: Sep 13, 2007
Mesajlar: 38
Nerden: istanbul

MesajTarih: Cum Eyl 14, 2007 4:06 pm    Mesaj konusu: Alıntıyla Cevap Ver
Mesaj: #4   

asfas demiş ki:
WEDNESDAY 13 2007 YENI ALBUM MU NE ZAMAN CIKARTIYOR ARKADASLAR BILENIZ WARSA CEWAP ATSIN OK
Twisted Evil
Başa dön
Kullanıcı profilini gör Özel mesaj gönder E-mail'i gönder
asfas
Geçerken Uğrayan
Geçerken Uğrayan


Kayıt: Sep 13, 2007
Mesajlar: 38
Nerden: istanbul

MesajTarih: Cum Oca 04, 2008 5:06 pm    Mesaj konusu: Alıntıyla Cevap Ver
Mesaj: #5   

Artist: Wednesday 13
Song: Bad Things
Album:Transylvania 90210, songs of death, dying and
the dead.

Tuning:Down 1 tone (DGCFAD)

Main riff
|--------------------------------|
|*------------------------------*|
|--------------------------------|
|--4-4-4-x-7-7-7---4-4---4--4-4--|
|*-4-4-4-x-7-7-7---4-4---4--4-4-*|
|--2-2-2-x-5-5-5-0-2-2-0-2--2-2--|

Riff2/verses
|-------|
|-------|
|-------|
|-7/6/5-|
|-7/6/5-|
|-5/4/3-|

Thats pretty much it, those two riffs are used all the way
through the song apart from the lead breaks/solos, which i
haven't tabbed because i do not have the right FX pedal to use.
I think it's a talkbox...
_________________
asfas
Başa dön
Kullanıcı profilini gör Özel mesaj gönder E-mail'i gönder
asfas
Geçerken Uğrayan
Geçerken Uğrayan


Kayıt: Sep 13, 2007
Mesajlar: 38
Nerden: istanbul

MesajTarih: Cum Oca 04, 2008 5:11 pm    Mesaj konusu: Alıntıyla Cevap Ver
Mesaj: #6   

NOrmal tuning
*=hold
e---------------------|
B---------------------|
G---------------------| repeat untill chorus
D---------------------|
A-5-5--7-7--5-5--3-5--|
E-3-3--5-5--3-3--1-3--|
chorus
E-----------------------|
B-----------------------|
G-----------------------|
D-----------------------|
A-7*--5*--3*------------|
E-5*--3*--1*------------|
plAY THIS WHEN WEDNESDAY SINGS- I WOULD NE LYING IF I SAID THAT WASN'T TRUE
repeat first riff through chorus...then there is a solo which is hard to hear then it
back to the first riff
good luck
any suggestions
_________________
asfas
Başa dön
Kullanıcı profilini gör Özel mesaj gönder E-mail'i gönder
asfas
Geçerken Uğrayan
Geçerken Uğrayan


Kayıt: Sep 13, 2007
Mesajlar: 38
Nerden: istanbul

MesajTarih: Cum Oca 04, 2008 5:12 pm    Mesaj konusu: Alıntıyla Cevap Ver
Mesaj: #7   

Intro:
Guitar 1 (Play on own)
e:-----------------|
B:-----------------|
G:-----------------|
D:-333-66-33-1-333-|
A:-333-66-33-1-333-|
D:-333-66-33-1-333-|

Verse:
Guitar 1 and 2
e:-----------------|
B:-----------------|
G:-----------------|
D:-333-66-33-1-333-|
A:-333-66-33-1-333-|
D:-333-66-33-1-333-|

Pre - Chorus:
Guitar 1:

e:-----------------|
B:-8-7-6-6---------| (I think that's right, I don't have my guitar on me
G:-----------------| right now lol)
D:-----------------| [If not play up a fret or down a fret]
A:-----------------|
D:-----------------|

Guitar 2:

e:----------|
B:----------|
G:----------|
D:-6-5-4-4b-|
A:-6-5-4-4b-|
D:-6-5-4-4b-|

Chorus - two guitars
e:-----------------|
B:-----------------|
G:-----------------|
D:-333-66-33-1-333-|
A:-333-66-33-1-333-|
D:-333-66-33-1-333-|
_________________
asfas
Başa dön
Kullanıcı profilini gör Özel mesaj gönder E-mail'i gönder
asfas
Geçerken Uğrayan
Geçerken Uğrayan


Kayıt: Sep 13, 2007
Mesajlar: 38
Nerden: istanbul

MesajTarih: Cum Oca 04, 2008 5:17 pm    Mesaj konusu: Alıntıyla Cevap Ver
Mesaj: #8   

Artist Wednesday 13
Song Bad Things
tuning Half step down (E flat, A flat, D flat etc.)
tabbed by James Hampton
difficulty Novice

INTRO/BRIDGE: very simple ]]]]]
]
GTR1 - RIFF A ]
----------------------------------- ]
----------------------------------- ]
----------------------------------- ]
-4-4-4---x-7-7-7-4-4-2-4-----4-4-2- ]
-4-4-4---x-7-7-7-4-4-2-4-----4-4-2- ]
-2-2-2---x-5-5-5-2-2-0-2-----2-2-0- ]
]
[--------------x2-------------------] ]
]
GTR2 - FILL A ]
----------------------------------- ]
----------------------------------- ]
----------------------------------- ] PLAY THE SECOND TIME OF
----------------------------------- ] GTR1 PLAYING
----------------------------------- ]
-------------------------------14\0 ]
]
[--------------x1-------------------] ]
]]]]]]]]]]]]]]]]]]]]]]]]]]]]]]]]]]]]]]]

GTR1+2 - RIFF B
-----------------------------------------------------------|
-----------------------------------------------------------|
-----------------------------------------------------------|
-4-4-4---x-7-7-7-4-4-2-4-----4-4-2-4-4-4---x-7-7-7-4-4-2-4-|
-4-4-4---x-7-7-7-4-4-2-4-----4-4-2-4-4-4---x-7-7-7-4-4-2-4-|
-2-2-2---x-5-5-5-2-2-0-2-----2-2-0-2-2-2---x-5-5-5-2-2-0-2-|


VERSE1 :The verse is RIFF A played by GTR1 and GTR2 7 times. Then after
that you play this once. Also there are these lyrics.


A bullet in your head.......is how i want it
and your body on the floor.... a kodak moment
and your a waste of air....and a waste of space
i want sharp ob--jects to fly....into your face
i hate you know.....more than i ever did
i wanna kill you......dig you up and do it again
i wan't a car.....to run.....over your head
put it in reverse..... and do it again

GTR1 + GTR2RIFF C
------------------------------------|
------------------------------------|
------------------------------------|
-4-4-4---x-7-7-7-4-4-2-4------------|
-4-4-4---x-7-7-7-4-4-2-4------------|
-2-2-2---x-5-5-5-2-2-0-2------------|

[-LET-RING---]


PRE-CHORUS:Very simple with these lyrics

And I.....would be lying.......if i said that it wasn't true

GTR1+2
--------------------------------------------------------------|
--------------------------------------------------------------|
--------------------------------------------------------------|
----7--------------6----------------5-------------------------|
----7--------------6----------------5-------------------------|
----5--------------4----------------3-------------------------|

I only wan't

-----------------|
-----------------|
-----------------|
-5\\\\-----------|
-5\\\\-----------|
-3\\\\-----------|

CHORUS1: The chorus is RIFF A played by GTR1 + GTR2 3 times, then
RIFF C once. Also include these lyrics.....

Bad..things.....to happen to you
I want..bad..things.....to happen to you
I want..bad..things.....to happen to you
I want..very bad things.....to happen to you -(scream)


SOLO 1 : GTR1 plays Riff A 2 times, RIFF B once
GTR2 plays solo

Verse 2: same but with different lyrics

It would be really great..if you drowned in a lake
I'll put a bag over you face and watch you suffocate
I'd celebrate at your wake......I'd bake myself a cake
Cause your my favorite person that i love to hate
And your the reason..that murder..should be legalized
If it was.... you'd be dead and in the ground by five
Just in case i forgot to say
I hate you mother fucker in the very worst way


PRE-CHORUS:Very simple with these lyrics

And I.....would be lying.......if i said that it wasn't true

GTR1+2
--------------------------------------------------------------|
--------------------------------------------------------------|
--------------------------------------------------------------|
----7--------------6----------------5-------------------------|
----7--------------6----------------5-------------------------|
----5--------------4----------------3-------------------------|

I only wan't

-----------------|
-----------------|
-----------------|
-5\\\\-----------|
-5\\\\-----------|
-3\\\\-----------|

CHORUS 2 : The chorus is RIFF A played by GTR1 + GTR2 3 times, then
RIFF C once. Also include these lyrics.....

Bad..things.....to happen to you
I want..bad..things.....to happen to you
I want..bad..things.....to happen to you
I want..very bad things.....to happen to yoooooooooouuuuuuuuu


SOLO 2 : GTR1 plays RIFF A 4 Times
GTR2 plays solo


GTR2 SOLO

GTR1 THIS
--------------------------------------------------------------|
--------------------------------------------------------------|
--------------------------------------------------------------|
----7--------------6----------------5-------------------------|
----7--------------6----------------5-------------------------|
----5--------------4----------------3-------------------------|

---------------------|
---------------------|
---------------------|
-5---------5\\\\-----|
-5---------5\\\\-----|
-3---------3\\\\-----|

[-let-ring------------]


INTRO/BRIDGE: ]]]]]
]
GTR1 - RIFF A ]
----------------------------------- ]
----------------------------------- ]
----------------------------------- ]
-4-4-4---x-7-7-7-4-4-2-4-----4-4-2- ]
-4-4-4---x-7-7-7-4-4-2-4-----4-4-2- ]
-2-2-2---x-5-5-5-2-2-0-2-----2-2-0- ]
]
[--------------x2-------------------] ]
]
GTR2 - FILL A ]
----------------------------------- ]
----------------------------------- ]
----------------------------------- ] PLAY THE SECOND TIME OF
----------------------------------- ] GTR1 PLAYING
----------------------------------- ]
-------------------------------14\0 ]
]
[--------------x1-------------------] ]
]]]]]]]]]]]]]]]]]]]]]]]]]]]]]]]]]]]]]]]

GTR1+2 - RIFF B
-----------------------------------------------------------|
-----------------------------------------------------------|
-----------------------------------------------------------|
-4-4-4---x-7-7-7-4-4-2-4-----4-4-2-4-4-4---x-7-7-7-4-4-2-4-|
-4-4-4---x-7-7-7-4-4-2-4-----4-4-2-4-4-4---x-7-7-7-4-4-2-4-|
-2-2-2---x-5-5-5-2-2-0-2-----2-2-0-2-2-2---x-5-5-5-2-2-0-2-|

CHORUS 3: GTR1 + GTR2 play RIFF A 4 times
Then GTR1 plays RIFF A 3 times and RIFF C once (let ring
for a long time on last note)and GTR2 plays a solo
Also the following lyrics......


I want..bad..things.....to happen to you
I want..bad..things.....to happen to you
I want..bad..things.....to happen to you
I want..very bad things.....to happen to you
I want..bad..things.....to happen to you
I want..bad..things.....to happen to you
I want..bad..things.....to happen to you
I want..very bad things.....to happen to yoooooooooouuuuuuuuu

This tab took me ages so please rate it and leave a comment

''wednesday 13 bad things gitar tabları'' eğer dah fazla gitar tablarına bakmak isterseniz arkadaşlar www.ultimate-guitar.com biraz geç oldu ama en azından bakmak isteyenler bu siteye baka bilirler.
_________________
asfas
Başa dön
Kullanıcı profilini gör Özel mesaj gönder E-mail'i gönder
Mesajları göster:   
Yeni Başlık Gönder   Cevap Gönder    metaltr.net Forum Ana Sayfası -> Gitar / Tab Tüm saatler GMT +1 Saat
1. sayfa (Toplam 1 sayfa)


 
Forum Seçin:  
Bu forumda yeni konular açamazsınız
Bu forumdaki mesajlara cevap veremezsiniz
Bu forumdaki mesajlarınızı değiştiremezsiniz
Bu forumdaki mesajlarınızı silemezsiniz
Bu forumdaki anketlerde oy kullanamazsınız


Powered by phpBB © 2001, 2002 phpBB Group
Türkçe Çeviri : Onur Turgay & Erdem Çorapçıoğlu
phpBB template by Spectre :: Ported for PHP-Nuke by nukemods.com
Forums ©
MetalTR.NET'de yayınlanan tercümeler, biyografiler, köşe yazıları, resimler ve sair materyaller izinsiz ve kaynak gösterilmeksizin kullanılamaz.
Copyright © 2004-2012 MetalTR.NET
| Yasal Uyarı



Sitemap - forumtags -
Web site engine code is Copyright © 2003 by PHP-Nuke. All Rights Reserved. PHP-Nuke is Free Software released under the GNU/GPL license.
Sayfa Üretimi: 0.23 Saniye
Untitled Document