Metal TR.NET - Yerli Gruplarina Sahip CIK !  
  Giriş veya Kayıt Ol
::  Ana Sayfa  ::  Hesabınız  ::  Forumlar  ::  Haberler  ::  Kritik  ::  Fotoğraf Galerisi  ::  Hosting  ::  Köşe Yazıları  ::
Menü
 Site
tree-T.gif Ana Sayfa
 Forum
 Haber Gönder
 Haber Arşivi
tree-T.gif Etkinlik Takvimi
tree-T.gif Site Kadrosu
 Extra
 Hosting
 En İyi 10
 İnteraktif
petitrond.gif Demo & Mp3 Arşivi
petitrond.gif Video İzleme
petitrond.gif Fotoğraf Galerisi
 Destek
 Destekleyenler
 Linkekle
 Bizi Öner!
 
İçerik
. Yerli Gruplar
. Yabancı Gruplar
. Biyografiler
. Albümler
. Albüm Kritikleri
. Röportajlar
. Köşe Yazıları
. Köşe Yazıları Arşiv
. Dergiler
. Etkinlikler
· Gitar & TAB
 
Albüm Kritikleri
· KORN - The path of totality
· Hypocrisy-A Taste of Extreme Divinity (2009)
· Cyntia - Endless World (2012)
· Tiamat - The Scarred People
· Moonspell Alpha Noir-Omega White.
· Ghost - Opus Eponymous
· Testament - Dark Roots of Earth
· Lamb of God - Resolution
· Volbeat Live From Beyond Hell/Above Heaven
· Pentagram - MMXII
 
Kısa Haberler

[ Haber Arşivi ]
 
Son 10 Haber
· SECURIS yeni Albümünü yayınladı.
[ 0 yorum - 15 okuma ]
· OPETH 22 Mart 2015′te İstanbul'da, 23 Mart'ta ise Ankara'da
[ 0 yorum - 8088 okuma ]
· Blind Guardian Istanbul konseri 14 Mayıs 2015
[ 0 yorum - 8542 okuma ]
· Blind Guardian 8 yıl aradan sonra yeniden Ankara’da
[ 0 yorum - 7886 okuma ]
· DYING FETUS 11 HAZİRAN 2015 İstanbul'da
[ 0 yorum - 9684 okuma ]
· Kurt Cobain belgeselinden ilk fragman geldi
[ 0 yorum - 7967 okuma ]
· Takıntı - Buhran klibi yayınlandı!
[ 0 yorum - 10178 okuma ]
· Wayne Static 48 yaşında hayatını kaybetti
[ 0 yorum - 10115 okuma ]
· Niklas Kvarforth video röportajı
[ 0 yorum - 9515 okuma ]
· Slipknot - The Gray Chapter
[ 0 yorum - 11618 okuma ]

[ Devamı Haberler Bölümünde ]
 
Fotoğraf Galerisi

B Noktası



B Noktası



B Noktası



Heretic Soul @ Waldb ...



Heretic Soul



Heretic Soul



Heretic Soul @ Rock ...



Anoreksi Promo 2011



Anoreksi Promo 2011



Anoreksi Promo 2011


[ Fotoğraf Galerisi ]
 
Rastgele Biyografi


Amorphis
 
MetalTR Arama
 
Üyelik
 
Üye Olun
Kayıp Şifre

Güvenlik Kodu: Güvenlik Kodu
Güvenlik Kodunu Girin:
 
Üyelik:
Bugün: 0
Dün: 0
Bekleyen Üyelik(ler): 0
Toplam Üye: 42,734
En Son Üye: Stolas

Şu An Bağlı:
Misafir(ler): 86
Üye(ler): 0
Toplam: 86
 
Forumlardan
Last 10 Forum Messages

Netflix Türkiye'ye geliyor
Son mesaj atan; ImpLosioN

en cok sevdiginiz içecek
Son mesaj atan; ImpLosioN

Şu anda kendinizi nasıl hissediyorsunuz?
Son mesaj atan; ImpLosioN

Şu anda ne dinliyorsunuz?
Son mesaj atan; ImpLosioN

Şu anda Ne Dinliyorsunuz?
Son mesaj atan; ImpLosioN

13lackHan - Turkish Black Metal
Son mesaj atan; BlackHan

BURSA 13LACKHAN AMDUSCIAS ELEMANLARI ELEMAN ARIYOR..
Son mesaj atan; BlackHan

13 yil sonra
Son mesaj atan; slayeeer

Metal Albüm Arşivimi Satıyorum!Türkiye'de bulunamaz albümler
Son mesaj atan; vury

Procession - Doom Decimation
Son mesaj atan; vury


[ Metal TR.NET - Yerli Gruplarina Sahip CIK ! ]
 
Köşe Yazıları
 
metaltr.net :: Başlığı Görüntüle - PENTAGRAM
 
 SSSSSS   AramaArama   Üye ListesiÜye Listesi   Kullanıcı GruplarıKullanıcı Grupları Üye ListesiCan Sıkıntısı Giderici!   
 ProfilProfil   Özel mesajlarınızı kontrol etmek için login olunÖzel mesajlarınızı kontrol etmek için login olun     GirişGiriş 
GünlüklerGünlükler    Günlük Kontrol PaneliGünlük Kontrol Paneli    GünlüğümGünlüğüm

PENTAGRAM
Sayfa 1, 2  Sonraki
 
Yeni Başlık Gönder   Cevap Gönder    metaltr.net Forum Ana Sayfası -> Gitar / Tab
Önceki başlık :: Sonraki başlık  
Yazar Mesaj
Novembre
Geçerken Uğrayan
Geçerken Uğrayan


Kayıt: Oct 09, 2004
Mesajlar: 5


MesajTarih: Pts Ksm 22, 2004 8:21 pm    Mesaj konusu: PENTAGRAM Alıntıyla Cevap Ver
Mesaj: #1   

PENTAGRAM-GüNDUZ GECE

intro:
-----------------------------------
-----------------------------------
-----------------------------------
------------6-5h6------------------
--5h6-8-8-8-------8---7--X--9--X--5
----------------------5--X--7--X--3


---------------------------------------------------------------------------
---------------------------------------------------------------------------
---------------------------------------------------------------------------
-----------------------------------------------------------2---------------
-----4h5-7-5-7---7-5-7------4h5-7-5---5-4-5---------2-4-5---2---2----2-----
--0-----------------------0-----------------------0-----------------5------


--------------------------------------------------------------
--------------------------------------------------------------
--------------------------------------------------------------
--------------------------------------------------------------
--2----------------------2----------------------2-2-----------
--0---0-2-3-5-0-6-6-6-6--0---0-2-3-5-0--6-6-6-6-0-0-----------

Her cümlenin sonunda:

-----------------------------------------
--12-10-12-8-10---8p7-5--8-7--3-5--------
-----------------------------------------
-----------------------------------------
-----------------------------------------
-----------------------------------------

Chorus

----------------------------------------------------------
----------------------------------------------------------
----------------------------------------------------------
--7-7-7---6-6-6---4-4-4--2-2-2----------------------------
--5-5-5---4-4-4---2-2-2--0-0-0--5-5-5---4-4-4---2-2-2-2---
--------------------------------3-3-3---2-2-2---0-0-0-0---

başka bi tab dan bulduuum solonun bi kısmınıda ekliyorum.....

Solo by Umut Eldem
|--------------------------------------------------------------------------
|-7-8-8/10~~--8p7p5-8-7~-3-3/5~~~----12-10-12-8-10~~-8p7p5-8-7-3--3/5~~~---
|--------------------------------------------------------------------------
|--------------------------------------------------------------------------
|--------------------------------------------------------------------------
|--------------------------------------------------------------------------


guitar 2 just goes crazy, this part of the solo has a jazzy feeling!

guitar 1
---------7--------10-8-7---------|---------------10-8-7------------------|
--8~-7-8---10-8-7--------10-8-7--|----------8h10--------10-8-7-5-3-2-3---|
---------------------------------|------7h9------------------------------|
---------------------------------|--7h9----------------------------------|
---------------------------------|---------------------------------------|
---------------------------------|---------------------------------------|


|------12-8----10-7---8-5----------------------------------10~~~---|
|--10-------10------8-----7-10-8-5-0-3h5-0-5h7-0-7h8-0-7-8---------|
|------------------------------------------------------------------|
|------------------------------------------------------------------|
|------------------------------------------------------------------|
|------------------------------------------------------------------|
Başa dön
Kullanıcı profilini gör Özel mesaj gönder E-mail'i gönder Yahoo Messenger MSN Messenger
Sponsor Linkler







Tarih: Google ve Sponsor Baglantilari    Mesaj konusu: Sizde bu bölüme reklam verebilirsiniz !
: #   


Başa dön
Supreme_Vempire
Hırr!!


Kayıt: Sep 25, 2004
Mesajlar: 707
Nerden: Bursa

MesajTarih: Cum Oca 28, 2005 12:54 pm    Mesaj konusu: Alıntıyla Cevap Ver
Mesaj: #2   

1000 eastland deki aradaki solo yanlış
_________________
Bahaneler gıç deliği gibidir her insanda bulunur.
Başa dön
Kullanıcı profilini gör Özel mesaj gönder MSN Messenger
kerubinden
Geçerken Uğrayan
Geçerken Uğrayan


Kayıt: Jan 26, 2005
Mesajlar: 8


MesajTarih: Cum Oca 28, 2005 10:46 pm    Mesaj konusu: Alıntıyla Cevap Ver
Mesaj: #3   

selam,
vita es mortenin tabı var mı sende?
Başa dön
Kullanıcı profilini gör Özel mesaj gönder
XoLodNaYa_
Zehir Hafiye
Zehir Hafiye


Kayıt: Jan 19, 2005
Mesajlar: 367
Nerden: uZakLarDaN:)

MesajTarih: Çrş Şub 23, 2005 5:22 pm    Mesaj konusu: Alıntıyla Cevap Ver
Mesaj: #4   

yok mu daha başka..!
_________________
It's what I do...
It's who I am...
It's why I'm here...
It's driving the music...
It's playing until I sweat...
It's Packing my gear at 2 a.m. and feeling the night's still young...
IT'S MUCH MORE THAN DRUMMING...
IT'S MY LIFE!!!
Başa dön
Kullanıcı profilini gör Özel mesaj gönder Kullanıcının web sitesini ziyaret et AIM Adresi Yahoo Messenger MSN Messenger
MetaRocK



Kayıt: Mar 30, 2005
Mesajlar: -1


MesajTarih: Prş Mar 31, 2005 4:14 pm    Mesaj konusu: Alıntıyla Cevap Ver
Mesaj: #5   

peki time'ın tabları var mı? Rolling Eyes
_________________
Rock will never die!...


En son MetaRocK tarafından Cmt Nis 02, 2005 5:55 pm tarihinde değiştirildi, toplamda 1 kere değiştirildi
Başa dön
Kullanıcı profilini gör Özel mesaj gönder
Quasimado
Geçerken Uğrayan
Geçerken Uğrayan


Kayıt: Apr 01, 2005
Mesajlar: 0


MesajTarih: Cum Nis 01, 2005 6:36 pm    Mesaj konusu: Alıntıyla Cevap Ver
Mesaj: #6   

Gündüz gece , intro yanlış.
Başa dön
Kullanıcı profilini gör Özel mesaj gönder
burocksoylu
Geçerken Uğrayan
Geçerken Uğrayan


Kayıt: Apr 02, 2005
Mesajlar: 11
Nerden: ankara

MesajTarih: Cmt Nis 02, 2005 2:04 pm    Mesaj konusu: Alıntıyla Cevap Ver
Mesaj: #7   

unspoken ve bir albümlerindeki bütün şarkıların tablarını istiyoruzzzz!!!!
_________________
pentagram fanatiði arkadaþlar bana ulaþsýn!!!
burocksoylu@mynet.com
Başa dön
Kullanıcı profilini gör Özel mesaj gönder E-mail'i gönder
sabathan
Geçerken Uğrayan
Geçerken Uğrayan


Kayıt: Apr 26, 2005
Mesajlar: 6
Nerden: istanbul

MesajTarih: Cmt May 14, 2005 9:41 pm    Mesaj konusu: Alıntıyla Cevap Ver
Mesaj: #8   

yaf bunnarın çoğu yannışş...örneğin 1000 'ın introdaki perdedern itibaren hataar başlıo... pain de ööle...
Başa dön
Kullanıcı profilini gör Özel mesaj gönder Kullanıcının web sitesini ziyaret et
cagdasarda
Zehir Hafiye
Zehir Hafiye


Kayıt: Jun 22, 2005
Mesajlar: 434
Nerden: canakkale

MesajTarih: Sal Hzr 28, 2005 3:13 pm    Mesaj konusu: Alıntıyla Cevap Ver
Mesaj: #9   

bu tablardan calmak pek mumkun deeel
yada ben yanlıs goruyu-orum
Başa dön
Kullanıcı profilini gör Özel mesaj gönder MSN Messenger
Rejected
Zeppelin FAN


Kayıt: Jun 05, 2005
Mesajlar: 685


MesajTarih: Sal Hzr 28, 2005 9:17 pm    Mesaj konusu: Alıntıyla Cevap Ver
Mesaj: #10   

tab kasış ya pentagram dediiin kulaktan çıkar
_________________
Jeff Hanneman ile Kerry King kavga ediyorlarmış Tom Araya girmiş düzelmiş
Başa dön
Kullanıcı profilini gör Özel mesaj gönder Kullanıcının web sitesini ziyaret et MSN Messenger
dragonsclaw
Geçerken Uğrayan
Geçerken Uğrayan


Kayıt: Jul 17, 2005
Mesajlar: 14


MesajTarih: Çrş Ağu 10, 2005 12:09 pm    Mesaj konusu: Alıntıyla Cevap Ver
Mesaj: #11   

Eft Gunduz gecenn brz yannış olmuşş...
bnde gitar pro war normal tab çalmıyorum...
en iiside o die düşünüom...
_________________
...Man-O-waR...
Başa dön
Kullanıcı profilini gör Özel mesaj gönder MSN Messenger
soadboy_ugur
Zehir Hafiye
Zehir Hafiye


Kayıt: Jul 17, 2005
Mesajlar: 391
Nerden: metal dünyasından....

MesajTarih: Pzr Ağu 14, 2005 8:00 pm    Mesaj konusu: Alıntıyla Cevap Ver
Mesaj: #12   

yaw gothic helal olsun sana be abi:)üşenmemişin walla saol eline sağlıkWink....
_________________
LET THE METAL REIGN!...


LEGACY...
Başa dön
Kullanıcı profilini gör Özel mesaj gönder MSN Messenger
denzoo_thrasher
Geçerken Uğrayan
Geçerken Uğrayan


Kayıt: Jun 27, 2005
Mesajlar: 20
Nerden: gayrettepe

MesajTarih: Pts Ağu 15, 2005 8:38 am    Mesaj konusu: Alıntıyla Cevap Ver
Mesaj: #13   

abi bunnardan bisi annas1lm1o ki bi de usenmeyip soloyu da yaz1osunuz ritm fln yok bunlarda nas1 ann1ycaz
Başa dön
Kullanıcı profilini gör Özel mesaj gönder E-mail'i gönder Yahoo Messenger MSN Messenger
denzoo_thrasher
Geçerken Uğrayan
Geçerken Uğrayan


Kayıt: Jun 27, 2005
Mesajlar: 20
Nerden: gayrettepe

MesajTarih: Pts Ağu 15, 2005 8:39 am    Mesaj konusu: Alıntıyla Cevap Ver
Mesaj: #14   

kulaktan c1karmak daha kolay
Başa dön
Kullanıcı profilini gör Özel mesaj gönder E-mail'i gönder Yahoo Messenger MSN Messenger
KubiRock



Kayıt: Jul 31, 2005
Mesajlar: -1


MesajTarih: Sal Ağu 16, 2005 6:26 pm    Mesaj konusu: Alıntıyla Cevap Ver
Mesaj: #15   

kulaktan çıkartın ne tabı yaw
Başa dön
Kullanıcı profilini gör Özel mesaj gönder
Garomat
Zehir Hafiye
Zehir Hafiye


Kayıt: Aug 30, 2005
Mesajlar: 448
Nerden: Balıkesir

MesajTarih: Pts Ekm 03, 2005 9:46 am    Mesaj konusu: Alıntıyla Cevap Ver
Mesaj: #16   

gothic saolasın ama 1000 in the eastland parçasının bazı bölümleri yanlış ama yinede fena sayılmaz
_________________
Yele karşı tükürmekten sakınınız...
Başa dön
Kullanıcı profilini gör Özel mesaj gönder E-mail'i gönder Kullanıcının web sitesini ziyaret et MSN Messenger
alexi_laiho
Sebil-i Sübyan
Sebil-i Sübyan


Kayıt: Feb 01, 2005
Mesajlar: 50
Nerden: varna

MesajTarih: Pts Ekm 03, 2005 9:03 pm    Mesaj konusu: Alıntıyla Cevap Ver
Mesaj: #17   

ya indirin guitar pro nedir olayımız böyle cebelleşiosunuz..
_________________
veriyosan ver kaldiriyorum bak.
Başa dön
Kullanıcı profilini gör Özel mesaj gönder E-mail'i gönder
blackrazor_89
Zehir Hafiye
Zehir Hafiye


Kayıt: Sep 12, 2005
Mesajlar: 205
Nerden: ist

MesajTarih: Prş Ekm 06, 2005 3:23 pm    Mesaj konusu: Alıntıyla Cevap Ver
Mesaj: #18   

ne kadar yer kaplar bu program??
Başa dön
Kullanıcı profilini gör Özel mesaj gönder E-mail'i gönder MSN Messenger
alexi_laiho
Sebil-i Sübyan
Sebil-i Sübyan


Kayıt: Feb 01, 2005
Mesajlar: 50
Nerden: varna

MesajTarih: Cmt Ekm 08, 2005 4:54 am    Mesaj konusu: Alıntıyla Cevap Ver
Mesaj: #19   

zik kadar yer kaplar ya ne olucak formatıda uygun bi cd guitar pro formatında 2000 3000 tab alıyor hesabet...
_________________
veriyosan ver kaldiriyorum bak.
Başa dön
Kullanıcı profilini gör Özel mesaj gönder E-mail'i gönder
osmanli_metalcisi
Geçerken Uğrayan
Geçerken Uğrayan


Kayıt: May 12, 2005
Mesajlar: 0
Nerden: CEHENNEMÝN DÝMÝ

MesajTarih: Prş Ksm 17, 2005 9:37 pm    Mesaj konusu: PENTAGRAM Alıntıyla Cevap Ver
Mesaj: #20   

Lions In A Cage


intro
--------------------------------------------------------------------
--------------------------------------------------------------------
------------------------------------------------------9-7-7---------
-----7-6-7-9-6-7---6-----------7-6-7-9-10-9-7-9-6-7---------10-9-7--
-5/7-------------8---8-7-5--5/7-------------------------------------
--------------------------------------------------------------------


------------------------------------------------------
------------------------------------------------------
-7------------------------9-7-7-6---6-----------------
---10-9-7--6--8-7-8---8-7---------8---8-7-5-----------
------------------------------------------------------
------------------------------------------------------

sözlerde
-----------------------------------------------------------------
-----------------------------------------------------------------
-----------------------------------------------------------------
----------------------------0-------------------------3-3--------
------------------------2-3-0-------------------------1-1--------
-0-0-0--0-0-0-0-0--0-0--0-1----0-0-0--0-0-0-0-0-0-0-0------------
bu riff böyle gidiyor ve nakarata girmeden aşağısı uygulanıyor

--------------------------------------I
--------------------------------------I
--------------------------------------I
-------------------0------------------I
--------------3----0---3---2---0----2-I
-0-0-0-0--0-0-1--------1---0---0----0-I

nakarat
--------------------------------------I---------------------------------
--------------------------------------I---------------------------------
--------------------------------------I---------------------------------
-----6--7-8-7--------------7-6------I-7-6--7-6--------------7-6-------
-7-8----------8-7-5--5-5-5---8-7-7I----------8-7-5--5-5-5-----8-7-7-
--------------------------------------I---------------------------------
bu ksım 2 kez bu kısım da 2 kez
_________________
ÝNCE TELDEN GEÇÝRÝLMÝÞ HAKÝKÝ SÜZME PÝSÝKOPAT
Başa dön
Kullanıcı profilini gör Özel mesaj gönder
Mesajları göster:   
Yeni Başlık Gönder   Cevap Gönder    metaltr.net Forum Ana Sayfası -> Gitar / Tab Tüm saatler GMT +1 Saat
Sayfa 1, 2  Sonraki
1. sayfa (Toplam 2 sayfa)


 
Forum Seçin:  
Bu forumda yeni konular açamazsınız
Bu forumdaki mesajlara cevap veremezsiniz
Bu forumdaki mesajlarınızı değiştiremezsiniz
Bu forumdaki mesajlarınızı silemezsiniz
Bu forumdaki anketlerde oy kullanamazsınız


Powered by phpBB © 2001, 2002 phpBB Group
Türkçe Çeviri : Onur Turgay & Erdem Çorapçıoğlu
phpBB template by Spectre :: Ported for PHP-Nuke by nukemods.com
Forums ©
MetalTR.NET'de yayınlanan tercümeler, biyografiler, köşe yazıları, resimler ve sair materyaller izinsiz ve kaynak gösterilmeksizin kullanılamaz.
Copyright © 2004-2012 MetalTR.NET
| Yasal Uyarı



Sitemap - forumtags -
Web site engine code is Copyright © 2003 by PHP-Nuke. All Rights Reserved. PHP-Nuke is Free Software released under the GNU/GPL license.
Sayfa Üretimi: 0.22 Saniye
Untitled Document